ISO-10303-21;
HEADER;
FILE_DESCRIPTION (( 'STEP AP203' ),
    '1' );
FILE_NAME ('CTR10-020-K02-100-1 Òðóáà ãëàäêàÿ æåñòêàÿ ÏÍÄ d20 ÈÝÊ ÷åðíàÿ (100ì).STEP',
    '2016-05-17T06:41:21',
    ( '' ),
    ( '' ),
    'SwSTEP 2.0',
    'SolidWorks 2014',
    '' );
FILE_SCHEMA (( 'CONFIG_CONTROL_DESIGN' ));
ENDSEC;

DATA;
#1 = PRODUCT_RELATED_PRODUCT_CATEGORY ( 'detail', '', ( #113 ) ) ;
#2 = DATE_AND_TIME ( #3, #7 ) ;
#3 = CALENDAR_DATE ( 2016, 17, 5 ) ;
#4 = PERSON ( 'UNSPECIFIED', 'UNSPECIFIED', 'UNSPECIFIED', ('UNSPECIFIED'), ('UNSPECIFIED'), ('UNSPECIFIED') ) ;
#5 = CC_DESIGN_SECURITY_CLASSIFICATION ( #40, ( #57 ) ) ;
#6 = DIRECTION ( 'NONE',  ( 0.0000000000000000000, 0.0000000000000000000, 1.000000000000000000 ) ) ;
#7 = LOCAL_TIME ( 9, 41, 21.00000000000000000, #8 ) ;
#8 = COORDINATED_UNIVERSAL_TIME_OFFSET ( 3, 0, .AHEAD. ) ;
#9 = APPROVAL_ROLE ( '' ) ;
#10 = APPROVAL_STATUS ( 'not_yet_approved' ) ;
#11 = DIRECTION ( 'NONE',  ( -0.0000000000000000000, -0.0000000000000000000, -1.000000000000000000 ) ) ;
#12 = DATE_TIME_ROLE ( 'classification_date' ) ;
#13 = PERSON_AND_ORGANIZATION_ROLE ( 'classification_officer' ) ;
#14 = CC_DESIGN_APPROVAL ( #18, ( #40 ) ) ;
#15 = PERSON_AND_ORGANIZATION ( #4, #93 ) ;
#16 = SECURITY_CLASSIFICATION_LEVEL ( 'unclassified' ) ;
#17 = PERSON_AND_ORGANIZATION_ROLE ( 'design_supplier' ) ;
#18 = APPROVAL ( #10, 'UNSPECIFIED' ) ;
#19 = PERSON_AND_ORGANIZATION ( #4, #93 ) ;
#20 = DIRECTION ( 'NONE',  ( 1.000000000000000000, 0.0000000000000000000, 0.0000000000000000000 ) ) ;
#21 = CC_DESIGN_DATE_AND_TIME_ASSIGNMENT ( #2, #12, ( #40 ) ) ;
#22 = APPROVAL_ROLE ( '' ) ;
#23 = APPROVAL_DATE_TIME ( #29, #56 ) ;
#24 = EDGE_CURVE ( 'NONE', #150, #150, #149, .T. ) ;
#25 = CC_DESIGN_PERSON_AND_ORGANIZATION_ASSIGNMENT ( #15, #13, ( #40 ) ) ;
#26 = APPROVAL_STATUS ( 'not_yet_approved' ) ;
#27 = DATE_TIME_ROLE ( 'creation_date' ) ;
#28 = CARTESIAN_POINT ( 'NONE',  ( 0.0000000000000000000, 0.0000000000000000000, 2000.000000000000000 ) ) ;
#29 = DATE_AND_TIME ( #33, #35 ) ;
#30 = EDGE_LOOP ( 'NONE', ( #125 ) ) ;
#31 = CLOSED_SHELL ( 'NONE', ( #161, #120, #70, #108 ) ) ;
#32 = PERSON_AND_ORGANIZATION ( #4, #93 ) ;
#33 = CALENDAR_DATE ( 2016, 17, 5 ) ;
#34 = CARTESIAN_POINT ( 'NONE',  ( 0.0000000000000000000, 0.0000000000000000000, 0.0000000000000000000 ) ) ;
#35 = LOCAL_TIME ( 9, 41, 21.00000000000000000, #39 ) ;
#36 = PERSON_AND_ORGANIZATION_ROLE ( 'creator' ) ;
#37 = ORIENTED_EDGE ( 'NONE', *, *, #24, .F. ) ;
#38 = APPROVAL_ROLE ( '' ) ;
#39 = COORDINATED_UNIVERSAL_TIME_OFFSET ( 3, 0, .AHEAD. ) ;
#40 = SECURITY_CLASSIFICATION ( '', '', #16 ) ;
#41 = APPROVAL_PERSON_ORGANIZATION ( #42, #56, #22 ) ;
#42 = PERSON_AND_ORGANIZATION ( #4, #93 ) ;
#43 = DATE_AND_TIME ( #48, #49 ) ;
#44 = CC_DESIGN_PERSON_AND_ORGANIZATION_ASSIGNMENT ( #19, #17, ( #57 ) ) ;
#45 = EDGE_CURVE ( 'NONE', #116, #116, #148, .T. ) ;
#46 = APPROVAL_STATUS ( 'not_yet_approved' ) ;
#47 = CC_DESIGN_PERSON_AND_ORGANIZATION_ASSIGNMENT ( #65, #154, ( #57 ) ) ;
#48 = CALENDAR_DATE ( 2016, 17, 5 ) ;
#49 = LOCAL_TIME ( 9, 41, 21.00000000000000000, #59 ) ;
#50 = CARTESIAN_POINT ( 'NONE',  ( 0.0000000000000000000, 0.0000000000000000000, 2000.000000000000000 ) ) ;
#51 = APPLICATION_PROTOCOL_DEFINITION ( 'international standard', 'config_control_design', 1994, #52 ) ;
#52 = APPLICATION_CONTEXT ( 'configuration controlled 3d designs of mechanical parts and assemblies' ) ;
#53 = CC_DESIGN_APPROVAL ( #56, ( #57 ) ) ;
#54 = PERSON_AND_ORGANIZATION_ROLE ( 'design_owner' ) ;
#55 = MECHANICAL_CONTEXT ( 'NONE', #68, 'mechanical' ) ;
#56 = APPROVAL ( #26, 'UNSPECIFIED' ) ;
#57 = PRODUCT_DEFINITION_FORMATION_WITH_SPECIFIED_SOURCE ( 'ANY', '', #113, .NOT_KNOWN. ) ;
#58 = CC_DESIGN_DATE_AND_TIME_ASSIGNMENT ( #43, #27, ( #69 ) ) ;
#59 = COORDINATED_UNIVERSAL_TIME_OFFSET ( 3, 0, .AHEAD. ) ;
#60 = CC_DESIGN_PERSON_AND_ORGANIZATION_ASSIGNMENT ( #66, #36, ( #69 ) ) ;
#61 = CC_DESIGN_APPROVAL ( #63, ( #69 ) ) ;
#62 = ORIENTED_EDGE ( 'NONE', *, *, #78, .F. ) ;
#63 = APPROVAL ( #46, 'UNSPECIFIED' ) ;
#64 = ADVANCED_BREP_SHAPE_REPRESENTATION ( 'CTR10-020-K02-100-1 T¨ºñð óûðôúð  öõ¸ªúð  ¦=- d20 L¦¦ ¢õ¨ýð  (100ü)', ( #98, #77 ), #104 ) ;
#65 = PERSON_AND_ORGANIZATION ( #4, #93 ) ;
#66 = PERSON_AND_ORGANIZATION ( #4, #93 ) ;
#67 = DIRECTION ( 'NONE',  ( 1.000000000000000000, 0.0000000000000000000, 0.0000000000000000000 ) ) ;
#68 = APPLICATION_CONTEXT ( 'configuration controlled 3d designs of mechanical parts and assemblies' ) ;
#69 = PRODUCT_DEFINITION ( 'UNKNOWN', '', #57, #167 ) ;
#70 = ADVANCED_FACE ( 'NONE', ( #152, #147 ), #137, .T. ) ;
#71 = APPROVAL_DATE_TIME ( #74, #63 ) ;
#72 = DIRECTION ( 'NONE',  ( 1.000000000000000000, 0.0000000000000000000, 0.0000000000000000000 ) ) ;
#73 = CC_DESIGN_PERSON_AND_ORGANIZATION_ASSIGNMENT ( #89, #54, ( #113 ) ) ;
#74 = DATE_AND_TIME ( #80, #81 ) ;
#75 = DATE_AND_TIME ( #94, #111 ) ;
#76 = APPLICATION_PROTOCOL_DEFINITION ( 'international standard', 'config_control_design', 1994, #68 ) ;
#77 = AXIS2_PLACEMENT_3D ( 'NONE', #106, #109, #67 ) ;
#78 = EDGE_CURVE ( 'NONE', #105, #105, #139, .T. ) ;
#79 =( NAMED_UNIT ( * ) SI_UNIT ( $, .STERADIAN. ) SOLID_ANGLE_UNIT ( ) );
#80 = CALENDAR_DATE ( 2016, 17, 5 ) ;
#81 = LOCAL_TIME ( 9, 41, 21.00000000000000000, #83 ) ;
#82 = EDGE_LOOP ( 'NONE', ( #62 ) ) ;
#83 = COORDINATED_UNIVERSAL_TIME_OFFSET ( 3, 0, .AHEAD. ) ;
#84 = PLANE ( 'NONE',  #100 ) ;
#85 = APPROVAL_PERSON_ORGANIZATION ( #87, #63, #38 ) ;
#86 = COORDINATED_UNIVERSAL_TIME_OFFSET ( 3, 0, .AHEAD. ) ;
#87 = PERSON_AND_ORGANIZATION ( #4, #93 ) ;
#88 = DIRECTION ( 'NONE',  ( 1.000000000000000000, 0.0000000000000000000, -0.0000000000000000000 ) ) ;
#89 = PERSON_AND_ORGANIZATION ( #4, #93 ) ;
#90 = DIRECTION ( 'NONE',  ( 1.000000000000000000, 0.0000000000000000000, -0.0000000000000000000 ) ) ;
#91 = CARTESIAN_POINT ( 'NONE',  ( 8.000000000000000000, 0.0000000000000000000, 2000.000000000000000 ) ) ;
#92 = DIRECTION ( 'NONE',  ( -0.0000000000000000000, -0.0000000000000000000, -1.000000000000000000 ) ) ;
#93 = ORGANIZATION ( 'UNSPECIFIED', 'UNSPECIFIED', '' ) ;
#94 = CALENDAR_DATE ( 2016, 17, 5 ) ;
#95 = UNCERTAINTY_MEASURE_WITH_UNIT (LENGTH_MEASURE( 1.000000000000000100E-005 ), #121, 'distance_accuracy_value', 'NONE');
#96 = DIRECTION ( 'NONE',  ( 0.0000000000000000000, 0.0000000000000000000, 1.000000000000000000 ) ) ;
#97 = DIRECTION ( 'NONE',  ( 1.000000000000000000, 0.0000000000000000000, 0.0000000000000000000 ) ) ;
#98 = MANIFOLD_SOLID_BREP ( 'Áîáûøêà-Âûòÿíóòü1', #31 ) ;
#99 = CARTESIAN_POINT ( 'NONE',  ( 0.0000000000000000000, 0.0000000000000000000, 2000.000000000000000 ) ) ;
#100 = AXIS2_PLACEMENT_3D ( 'NONE', #99, #130, #90 ) ;
#101 = EDGE_CURVE ( 'NONE', #102, #102, #140, .T. ) ;
#102 = VERTEX_POINT ( 'NONE', #114 ) ;
#103 = PRODUCT_DEFINITION_SHAPE ( 'NONE', 'NONE',  #69 ) ;
#104 =( GEOMETRIC_REPRESENTATION_CONTEXT ( 3 ) GLOBAL_UNCERTAINTY_ASSIGNED_CONTEXT ( ( #95 ) ) GLOBAL_UNIT_ASSIGNED_CONTEXT ( ( #121, #117, #79 ) ) REPRESENTATION_CONTEXT ( 'NONE', 'WORKASPACE' ) );
#105 = VERTEX_POINT ( 'NONE', #142 ) ;
#106 = CARTESIAN_POINT ( 'NONE',  ( 0.0000000000000000000, 0.0000000000000000000, 0.0000000000000000000 ) ) ;
#107 = CARTESIAN_POINT ( 'NONE',  ( 10.00000000000000000, 0.0000000000000000000, 0.0000000000000000000 ) ) ;
#108 = ADVANCED_FACE ( 'NONE', ( #141, #131 ), #127, .F. ) ;
#109 = DIRECTION ( 'NONE',  ( 0.0000000000000000000, 0.0000000000000000000, 1.000000000000000000 ) ) ;
#110 = EDGE_LOOP ( 'NONE', ( #165 ) ) ;
#111 = LOCAL_TIME ( 9, 41, 21.00000000000000000, #86 ) ;
#112 = AXIS2_PLACEMENT_3D ( 'NONE', #166, #128, #88 ) ;
#113 = PRODUCT ( 'CTR10-020-K02-100-1 Òðóáà ãëàäêàÿ æåñòêàÿ ÏÍÄ d20 ÈÝÊ ÷åðíàÿ (100ì)', 'CTR10-020-K02-100-1 Òðóáà ãëàäêàÿ æåñòêàÿ ÏÍÄ d20 ÈÝÊ ÷åðíàÿ (100ì)', '', ( #55 ) ) ;
#114 = CARTESIAN_POINT ( 'NONE',  ( 8.000000000000000000, 0.0000000000000000000, 0.0000000000000000000 ) ) ;
#115 = APPROVAL_PERSON_ORGANIZATION ( #32, #18, #9 ) ;
#116 = VERTEX_POINT ( 'NONE', #91 ) ;
#117 =( NAMED_UNIT ( * ) PLANE_ANGLE_UNIT ( ) SI_UNIT ( $, .RADIAN. ) );
#118 = APPROVAL_DATE_TIME ( #75, #18 ) ;
#119 = DIRECTION ( 'NONE',  ( -1.000000000000000000, 0.0000000000000000000, 0.0000000000000000000 ) ) ;
#120 = ADVANCED_FACE ( 'NONE', ( #134, #126 ), #132, .F. ) ;
#121 =( LENGTH_UNIT ( ) NAMED_UNIT ( * ) SI_UNIT ( .MILLI., .METRE. ) );
#122 = AXIS2_PLACEMENT_3D ( 'NONE', #164, #11, #119 ) ;
#123 = FACE_OUTER_BOUND ( 'NONE', #163, .T. ) ;
#124 = DIRECTION ( 'NONE',  ( -1.000000000000000000, 0.0000000000000000000, 0.0000000000000000000 ) ) ;
#125 = ORIENTED_EDGE ( 'NONE', *, *, #101, .T. ) ;
#126 = FACE_BOUND ( 'NONE', #30, .T. ) ;
#127 = CYLINDRICAL_SURFACE ( 'NONE', #122, 8.000000000000000000 ) ;
#128 = DIRECTION ( 'NONE',  ( 0.0000000000000000000, 0.0000000000000000000, 1.000000000000000000 ) ) ;
#129 = SHAPE_DEFINITION_REPRESENTATION ( #103, #64 ) ;
#130 = DIRECTION ( 'NONE',  ( 0.0000000000000000000, 0.0000000000000000000, 1.000000000000000000 ) ) ;
#131 = FACE_OUTER_BOUND ( 'NONE', #157, .T. ) ;
#132 = PLANE ( 'NONE',  #112 ) ;
#133 = DIRECTION ( 'NONE',  ( 0.0000000000000000000, 0.0000000000000000000, 1.000000000000000000 ) ) ;
#134 = FACE_OUTER_BOUND ( 'NONE', #160, .T. ) ;
#135 = ORIENTED_EDGE ( 'NONE', *, *, #24, .T. ) ;
#136 = FACE_BOUND ( 'NONE', #110, .T. ) ;
#137 = CYLINDRICAL_SURFACE ( 'NONE', #138, 10.00000000000000000 ) ;
#138 = AXIS2_PLACEMENT_3D ( 'NONE', #28, #92, #124 ) ;
#139 = CIRCLE ( 'NONE', #143, 10.00000000000000000 ) ;
#140 = CIRCLE ( 'NONE', #146, 8.000000000000000000 ) ;
#141 = FACE_OUTER_BOUND ( 'NONE', #162, .T. ) ;
#142 = CARTESIAN_POINT ( 'NONE',  ( 10.00000000000000000, 0.0000000000000000000, 2000.000000000000000 ) ) ;
#143 = AXIS2_PLACEMENT_3D ( 'NONE', #155, #6, #97 ) ;
#144 = DIRECTION ( 'NONE',  ( 1.000000000000000000, 0.0000000000000000000, 0.0000000000000000000 ) ) ;
#145 = DIRECTION ( 'NONE',  ( 0.0000000000000000000, 0.0000000000000000000, 1.000000000000000000 ) ) ;
#146 = AXIS2_PLACEMENT_3D ( 'NONE', #151, #145, #144 ) ;
#147 = FACE_OUTER_BOUND ( 'NONE', #169, .T. ) ;
#148 = CIRCLE ( 'NONE', #153, 8.000000000000000000 ) ;
#149 = CIRCLE ( 'NONE', #158, 10.00000000000000000 ) ;
#150 = VERTEX_POINT ( 'NONE', #107 ) ;
#151 = CARTESIAN_POINT ( 'NONE',  ( 0.0000000000000000000, 0.0000000000000000000, 0.0000000000000000000 ) ) ;
#152 = FACE_OUTER_BOUND ( 'NONE', #82, .T. ) ;
#153 = AXIS2_PLACEMENT_3D ( 'NONE', #50, #133, #20 ) ;
#154 = PERSON_AND_ORGANIZATION_ROLE ( 'creator' ) ;
#155 = CARTESIAN_POINT ( 'NONE',  ( 0.0000000000000000000, 0.0000000000000000000, 2000.000000000000000 ) ) ;
#156 = ORIENTED_EDGE ( 'NONE', *, *, #45, .T. ) ;
#157 = EDGE_LOOP ( 'NONE', ( #168 ) ) ;
#158 = AXIS2_PLACEMENT_3D ( 'NONE', #34, #96, #72 ) ;
#159 = ORIENTED_EDGE ( 'NONE', *, *, #78, .T. ) ;
#160 = EDGE_LOOP ( 'NONE', ( #37 ) ) ;
#161 = ADVANCED_FACE ( 'NONE', ( #123, #136 ), #84, .T. ) ;
#162 = EDGE_LOOP ( 'NONE', ( #156 ) ) ;
#163 = EDGE_LOOP ( 'NONE', ( #159 ) ) ;
#164 = CARTESIAN_POINT ( 'NONE',  ( 0.0000000000000000000, 0.0000000000000000000, 2000.000000000000000 ) ) ;
#165 = ORIENTED_EDGE ( 'NONE', *, *, #45, .F. ) ;
#166 = CARTESIAN_POINT ( 'NONE',  ( 0.0000000000000000000, 0.0000000000000000000, 0.0000000000000000000 ) ) ;
#167 = DESIGN_CONTEXT ( 'detailed design', #52, 'design' ) ;
#168 = ORIENTED_EDGE ( 'NONE', *, *, #101, .F. ) ;
#169 = EDGE_LOOP ( 'NONE', ( #135 ) ) ;
ENDSEC;
END-ISO-10303-21;
